Tux Guitar

Suggestions

Subject Using Capo's



Author Message
Matt Savage
Post: May 8th 2009 at 12:28 PM

Just a quickie, is there anyway to tell TG that you are using a capo so that it shifts to the appropriate notes? Let me explain with an example...

I've downloaded a copy of "Waterfall" by The Stone Roses from one of the guitar archives in gp format. This copy though creates the tab as if the guitar is open ie...

--------------------------------
------3------------------------
----------2-----0--0----0----
--0----------0--------4-------
--------------------------------
--------------------------------

However the song is actually played with a capo at the 4 fret Meaning it's more like...

-------------------------------------
-------------------------------------
-----7------------------------------
-------7----5--5--4--5-----------
--5------5-------------------------
-------------------------------------

Now I can easily go through the entire song and change every note but I don't know if there is a quicker way?

Ta

Matt


Back to Top
 
Julian
Post: May 10th 2009 at 2:01 PM

Well, no there is no a feature to do something like.
there are features to change the string of a note (Shift Down), but not for a group (see all track) of notes.


Back to Top